Jeff Lewis Forum Index
$1.75 US
$1.95 CAN
Jeff Lewis
message board
 
  FAQ     Search     Memberlist     Usergroups     Register  
  Profile     Log in to check your private messages     Log in  

the singing tree

 
Post new topic   Reply to topic    Jeff Lewis Forum Index -> Tabs
View previous topic :: View next topic  
Author Message
andyBLR



Joined: 29 Mar 2006
Posts: 87
Location: Canterbury, Kent England

PostPosted: Mon Aug 14, 2006 5:21 pm    Post subject: the singing tree Reply with quote

not sure about this but sounds about right.

it's an E chord with some hammers and slides roughly like this.

e|------------0---------0-------------------0-----------------------0--------------------0-----------
B|------------0---------0---------0(h)2-----2----------0(h)2------2------ 0(h)2------2----------
G|------------1---------1------------------------1------------------------1--------------------1-----
D|----------------------------------------------------------------------------------------------------
A|---------------------------------------------------------2---------------------------------------------
E|---0--------------0-------------0-------------------------------------------0----------------------



e|--------0------------0-------------------------------------------------0--------0---------------0-----
B|--------0------------0-------2 (slide)5---5---0---2----------------0-------0----- 0(h)2-----2----
G|--------1------------1--------------------------------------------------1--------1---------------------1--
D|---------------------------------------------------------------------------------------------------------
A|---------------------------------------------------------------------------------------------------------
E|----0----------0-------------------------------------------------0----------0---------0-----------------
_________________
"Shoes of the future : Trousers of the past"
Back to top
View user's profile Send private message
Dav
Site Admin


Joined: 30 Oct 2005
Posts: 2782
Location: Rennes, France

PostPosted: Tue Aug 15, 2006 11:08 am    Post subject: Reply with quote

I remeber when i saw Jeff playing it live thinking, well....this one, i'll never play it !
Thanks for your help now i can try!
_________________
http://uberaffe.bandcamp.com
Back to top
View user's profile Send private message Send e-mail Visit poster's website
andyBLR



Joined: 29 Mar 2006
Posts: 87
Location: Canterbury, Kent England

PostPosted: Tue Aug 15, 2006 3:34 pm    Post subject: Reply with quote

i'm pretty sure i gotthe second bit wrong.
it is more like this

e|--------0------------0-------2(slide)4--0---------------------------0--------0---------------0-----
B|--------0------------0-------------------------2----------------------0-------0----- 0(h)2-----2----
G|--------1------------1--------------------------------------------------1--------1---------------------1--
D|---------------------------------------------------------------------------------------------------------
A|---------------------------------------------------------------------------------------------------------
E|----0----------0-------------------------------------------------0----------0---------0-----------------
_________________
"Shoes of the future : Trousers of the past"
Back to top
View user's profile Send private message
andyBLR



Joined: 29 Mar 2006
Posts: 87
Location: Canterbury, Kent England

PostPosted: Wed Sep 20, 2006 10:26 am    Post subject: Reply with quote

the more i play this the more sure i am that i had it wrong so he's another go think this one is more accurate.


e|------------0---------0-------------------0-----------------------0--------------------0-----------
B|------------2---------2---------0(h)2-----2----------0(h)2------2------ 0(h)2------2----------
G|------------1---------1------------------------1------------------------1--------------------1-----
D|----------------------------------------------------------------------------------------------------
A|------------------------------------------------------------------------------------------------------
E|------2-----------2-------------2----------------------2--------------------2----------------------


e|--------0------------0-------2(slide)4--0---------------------------0-------0---------------0-----
B|--------0------------0-------------------------2----------------------0-------0----- 0(h)2-----2----
G|--------1------------1--------------------------------------------------1--------1---------------------1--
D|---------------------------------------------------------------------------------------------------------
A|---------------------------------------------------------------------------------------------------------
E|----0----------0-------------------------------------------------0----------0---------0-----------------


what do other people think?
_________________
"Shoes of the future : Trousers of the past"
Back to top
View user's profile Send private message
Opuitska



Joined: 09 Oct 2006
Posts: 10

PostPosted: Thu Feb 08, 2007 5:07 pm    Post subject: Reply with quote

That sounds very right to me !
Hard to sing and play at the same time though, it gets sloppy when I try Confused
Back to top
View user's profile Send private message MSN Messenger
Display posts from previous:   
All times are GMT + 1 Hour
Post new topic   Reply to topic    Jeff Lewis Forum Index -> Tabs
 
Page 1 of 1

 
Jump to:  
You cannot post new topics in this forum
You cannot reply to topics in this forum
You cannot edit your posts in this forum
You cannot delete your posts in this forum
You cannot vote in polls in this forum


Powered by phpBB © 2001, 2002 phpBB Group