Jeff Lewis Forum Index
$1.75 US
$1.95 CAN
Jeff Lewis
message board
 
  FAQ     Search     Memberlist     Usergroups     Register  
  Profile     Log in to check your private messages     Log in  

Do they owe us a living (crass cover)

 
Post new topic   Reply to topic    Jeff Lewis Forum Index -> Tabs
View previous topic :: View next topic  
Author Message
andyBLR



Joined: 29 Mar 2006
Posts: 87
Location: Canterbury, Kent England

PostPosted: Sat Oct 06, 2007 3:29 pm    Post subject: Do they owe us a living (crass cover) Reply with quote

Main Verse riff
Basicall an Em that you pull off the A string note
e||-----------------------------------------------------------------------------
B||-------------------------------------------------------------------------
G||----------------------------------------------------------------------
D||--------2-------------2-------------2---------------2---------------------------
A||-----2----0------2------0------2------0-------2------0--------------------------
E||--0------------0-------------0---------------0------------------------

sometimes it does this
and swaps to an A or Am for the last note
e||-----------------------------------------------------------------------------
B||-------------------------------------------------------------------------
G||------------------------------------------------------2----------------
D||--------2-------------2-------------2---------------2---------------------------
A||-----2----0------2------0------2------0-------2--------------------------------
E||--0------------0-------------0---------------0------------------------

chorus Em G A A

e||-----------------------------------------------------------------------------
B||-------------------------------------------------------------------------
G||-----------------------------------------2------------2---------------
D||--------2-------------0-------------2-----2------2----2-------------------------
A||-----2----2------2------2------0-------------0----------------------------------
E||--0------------3------------------------------------------------------
_________________
"Shoes of the future : Trousers of the past"
Back to top
View user's profile Send private message
Display posts from previous:   
All times are GMT + 1 Hour
Post new topic   Reply to topic    Jeff Lewis Forum Index -> Tabs
 
Page 1 of 1

 
Jump to:  
You cannot post new topics in this forum
You cannot reply to topics in this forum
You cannot edit your posts in this forum
You cannot delete your posts in this forum
You cannot vote in polls in this forum


Powered by phpBB © 2001, 2002 phpBB Group