Jeff Lewis Forum Index
$1.75 US
$1.95 CAN
Jeff Lewis
message board
 
  FAQ     Search     Memberlist     Usergroups     Register  
  Profile     Log in to check your private messages     Log in  

The east river (by joeletigre)

 
Post new topic   Reply to topic    Jeff Lewis Forum Index -> Tabs
View previous topic :: View next topic  
Author Message
Dav
Site Admin


Joined: 30 Oct 2005
Posts: 2773
Location: Rennes, France

PostPosted: Wed Mar 08, 2006 11:59 am    Post subject: The east river (by joeletigre) Reply with quote

The East River

Finger picking again, the chords are

verse :

C
If I had a girl...
F
she would do
D G
she would .... x4

F C
And then she'd leave me....alone

chorus :

E Am
9,8,7th avenue
E Am
now i'm crossing Madison
E Am
Sobbing on Park avenue
F
Feeling bad on Lexington
E Am
3,2,1st avenue
E Am
going east with the wind
E Am F
Cross the ... the East River
C
Fall right in
_________________
http://uberaffe.bandcamp.com
Back to top
View user's profile Send private message Send e-mail Visit poster's website
andyBLR



Joined: 29 Mar 2006
Posts: 87
Location: Canterbury, Kent England

PostPosted: Mon Aug 14, 2006 4:27 pm    Post subject: Reply with quote

is it Eminor not just an E??
_________________
"Shoes of the future : Trousers of the past"
Back to top
View user's profile Send private message
joeletigre



Joined: 21 Dec 2005
Posts: 95

PostPosted: Tue Aug 15, 2006 10:48 am    Post subject: Reply with quote

you're right, i actually always played it with Em, i think i just forget to put the little 'm' on the tab, thank you for fixing that

sorry folks
_________________
http://www.myspace.com/lapinmachin
http://www.myspace.com/joelapin
Back to top
View user's profile Send private message
Lovers



Joined: 23 Sep 2006
Posts: 10

PostPosted: Tue Jan 09, 2007 11:08 pm    Post subject: Reply with quote

whats the finger picking tab stlye?
Back to top
View user's profile Send private message
joeletigre



Joined: 21 Dec 2005
Posts: 95

PostPosted: Thu Jan 11, 2007 5:19 pm    Post subject: Reply with quote

i dunno really
somthing like that, really approximatively

C

---0----------0-----0----------------------------0--------0---
-------1----------1------1---------1--------1----------1------1-
---0----------------------------------0------0------------------
----------------------2----------------------------2------------
--------------------------------2--3----------------------------
-----------------------------3------------------------------------
_________________
http://www.myspace.com/lapinmachin
http://www.myspace.com/joelapin
Back to top
View user's profile Send private message
Fishkins



Joined: 31 Jan 2011
Posts: 18

PostPosted: Wed Jun 01, 2011 10:28 pm    Post subject: Fingerpicking tab Reply with quote

I play it like this:

Code:
VERSE:
C
--------------------------------
-----------------1-------1------
-----------0--0----0--0----0--0-
---2---------2-2-----2-2-----2-2
-3-----0-3----------------------
-----3--------------------------
C                        F
----------------------------------------
-----------------1---------1-----1------
-----------0--0----0--0-------2----2--2-
---2---------2-2-----2-2-----3-3-----3-3
-3-----0-3------------------------------
-----3-------------------1--------------
D        G
----------------
---3-------0----
------2-------0- x4
-0---0-0-----0-0
---------3------
----------------
F
----------------
---1-----1------
------2----2--2-
-----3-3-----3-3
----------------
-1--------------

CHORUS:
Em       Am
----------------
---0-------1----
------0-------2- x3
-----2-2-----2-2
---------0------
-0--------------
F
----------------
---1-----1------
------2----2--2-
-----3-3-----3-3
----------------
-1--------------
repeat

et cetera

There's also a part the end where he does similar picking alternating between F and G
Back to top
View user's profile Send private message
Display posts from previous:   
All times are GMT + 1 Hour
Post new topic   Reply to topic    Jeff Lewis Forum Index -> Tabs
 
Page 1 of 1

 
Jump to:  
You cannot post new topics in this forum
You cannot reply to topics in this forum
You cannot edit your posts in this forum
You cannot delete your posts in this forum
You cannot vote in polls in this forum


Powered by phpBB © 2001, 2002 phpBB Group