Jeff Lewis Forum Index
$1.75 US
$1.95 CAN
Jeff Lewis
message board
 
  FAQ     Search     Memberlist     Usergroups     Register  
  Profile     Log in to check your private messages     Log in  

moving

 
Post new topic   Reply to topic    Jeff Lewis Forum Index -> Tabs
View previous topic :: View next topic  
Author Message
andyBLR



Joined: 29 Mar 2006
Posts: 87
Location: Canterbury, Kent England

PostPosted: Thu Sep 14, 2006 1:06 am    Post subject: moving Reply with quote

saw someone on the lyrics page requested this. here's my go.

(P)=pull off
(h)=Hammer on
(s)=slide

Intro picked bit

e|---------------------
b|----------------------
g|---------------------
d|----------0--0--------
a|--0--2-------------
E|--------------------------

then the rest of the song is this

e|----2--------------------------------------|--0-----------------------------
b|----3--------------------------------------|--1------------------------------
g|----2--------------------------------------|--0--------------0-(H)-2-----------------
d|----0---2 -(P) 0-----------------0----2-|--2----2-(P)-0------------0---2--------------
a|---------------------0--(H) 2------------|--3------------------------------
E|-------------------------------------------|-------------------------------

e|---3------------------------------------------|--2--------------------------------------------
b|---3------------------------------------------|--3-----------------------------------------------
g|---0------------------------------------------|--2-------------------------------------------
d|---0----------------0-(H)-2-----------------|--0-------2-(P)-0------------------0-----2----
a|---2----2-(P)-0--------------2-(P)--0-----|-------------------------0-(H)-2---------------
E|---3------------------------------------------|--------------------------------------------------


so this is basically the notes. when i play it i try and hold the chord shape while i do the hammers ons & pull offs so when you pick other strings i'm still playing the chord.


and i think the middle bit when the lyrics go "and man it's so existential .." goes. . .

e|----------------------------------------|-------------------|-------------------------------
b|----------------------------------------|-------------------|---------------------------------
g|------0---------------------0----------------------------- |--------2------2--------2-----2-------
d|---2------2--2-(S)--4--------4-----| 3 times then |---0------0---------0------0---
a|----------------------------------------|-------------------|---------------------------
E|----------------------------------------|-------------------|---------------------------------
_________________
"Shoes of the future : Trousers of the past"
Back to top
View user's profile Send private message
Will Oldham
Site Admin


Joined: 14 Dec 2005
Posts: 1782
Location: Kent, England

PostPosted: Fri Sep 15, 2006 6:45 pm    Post subject: Reply with quote

Cheers Andy,

Though I had a listen and it sounded a little different to me and I made the following changes hop you dont mind Smile

Moving

(P)=pull off
(h)=Hammer on
(s)=slide

Intro picked bit

e|---------------------
b|----------------------
g|---------------------
d|----------0--0--------
a|--0--2-------------
E|--------------------------

then the rest of the song is this

e|----2--------------------------------------|--0----------------------------------------
b|----3--------------------------------------|--1----------------------------------------
g|----2--------------------------------------|--0---------------------0------------------
d|----0---0-(H)-2-(P)- 0-----------0-----|--2---0-(H)-2-(P)-0------0-(H)-2--0-
a|---------------------------- 2----2-----3-|--3----------------------------------------
E|--------------------------------------------|--------------------------------------------

e|---3-------------------------------------------|--2--------------------------------------------
b|---3-------------------------------------------|--3--------------------------------------------
g|---0-------------------------------------------|--2--------------------------------------------
d|---0--------------------0---------------------|--0---0-(H)-2-(P)- 0-----------0----0-----
a|---2--0-(H)-2-(P)-0---------0-(H)-2--0--|--------------------------2----2---------------
E|---3-------------------------------------------|------------------------------------------------



and i think the middle bit when the lyrics go "and man it's so existential .." goes. . .

e|----0------0------0-----------------------------------------------------------------2----
b|----0------0------0-----------------------------------------------------------------3----
g|----0------0------0-----------------------------------------------------------------2----
d|--------------------------(S)-(4-4-4-4)---2--------(S)-4---2---0--------0-----0----
a|----2-(S)-5-(S)-7------------------------------------------------------2---------------
E|--------------------------------------------------------------------------------------------


I'm not certain on that last bit though, it's quite hard to hear
_________________


www.myspace.com/will_oldham_horror


Last edited by Will Oldham on Sat Sep 16, 2006 12:00 pm; edited 2 times in total
Back to top
View user's profile Send private message Visit poster's website Yahoo Messenger
andyBLR



Joined: 29 Mar 2006
Posts: 87
Location: Canterbury, Kent England

PostPosted: Sat Sep 16, 2006 2:13 am    Post subject: Reply with quote

no problem man, i was pretty sure my picking bit wasn't completely right but thought it'd be close enough for people to play around with it and get closer than me. the middle bit is really diffficult to make out as well, so your guess is as good as mine (or probably better).
_________________
"Shoes of the future : Trousers of the past"
Back to top
View user's profile Send private message
Will Oldham
Site Admin


Joined: 14 Dec 2005
Posts: 1782
Location: Kent, England

PostPosted: Sat Sep 16, 2006 12:02 pm    Post subject: Reply with quote

I had another listen to it this morning and made a couple of alterations to my tab above
_________________


www.myspace.com/will_oldham_horror
Back to top
View user's profile Send private message Visit poster's website Yahoo Messenger
Opuitska



Joined: 09 Oct 2006
Posts: 10

PostPosted: Mon Dec 25, 2006 8:04 pm    Post subject: Reply with quote

I've been trying to figure out this song too, as I find it amazingly beautiful.
Will's version is quite close to what Jeff plays I think.

This can help :

http://youtube.com/watch?v=0v5wcVSA048
Back to top
View user's profile Send private message MSN Messenger
Will Oldham
Site Admin


Joined: 14 Dec 2005
Posts: 1782
Location: Kent, England

PostPosted: Mon Dec 25, 2006 11:08 pm    Post subject: Reply with quote

thanks dude
_________________


www.myspace.com/will_oldham_horror
Back to top
View user's profile Send private message Visit poster's website Yahoo Messenger
rachel



Joined: 31 Aug 2006
Posts: 4

PostPosted: Mon Mar 30, 2009 1:42 am    Post subject: Reply with quote

can someone give me the chords.
i play uke and tabs mean nothing to me unfortunately.
Back to top
View user's profile Send private message
Kieron



Joined: 02 Dec 2005
Posts: 909
Location: Edinburgh

PostPosted: Mon Mar 30, 2009 9:09 am    Post subject: Reply with quote

rachel, i think it would go d, c, g, d, going on those tabs. i've never actually learnt to play this even though it's one of my fav songs! (and i want it played at my funeral)
Back to top
View user's profile Send private message Send e-mail Visit poster's website MSN Messenger
Dav
Site Admin


Joined: 30 Oct 2005
Posts: 2760
Location: Rennes, France

PostPosted: Mon Mar 30, 2009 4:13 pm    Post subject: Reply with quote

i agree with Kieron, D C G D etc...
_________________
http://uberaffe.bandcamp.com
Back to top
View user's profile Send private message Send e-mail Visit poster's website
Display posts from previous:   
All times are GMT + 1 Hour
Post new topic   Reply to topic    Jeff Lewis Forum Index -> Tabs
 
Page 1 of 1

 
Jump to:  
You cannot post new topics in this forum
You cannot reply to topics in this forum
You cannot edit your posts in this forum
You cannot delete your posts in this forum
You cannot vote in polls in this forum


Powered by phpBB © 2001, 2002 phpBB Group